ISO-10303-21;
HEADER;
FILE_DESCRIPTION (( 'STEP AP203' ),
    '1' );
FILE_NAME ('QB-CTZQWP-20-894-M.STEP',
    '2020-12-24T01:50:47',
    ( '' ),
    ( '' ),
    'SwSTEP 2.0',
    'SolidWorks 2020',
    '' );
FILE_SCHEMA (( 'CONFIG_CONTROL_DESIGN' ));
ENDSEC;

DATA;
#1 = AXIS2_PLACEMENT_3D ( 'NONE', #27, #68, #49 ) ;
#2 = COORDINATED_UNIVERSAL_TIME_OFFSET ( 8, 0, .AHEAD. ) ;
#3 = VECTOR ( 'NONE', #158, 1000.000000000000000 ) ;
#4 =( LENGTH_UNIT ( ) NAMED_UNIT ( * ) SI_UNIT ( .MILLI., .METRE. ) );
#5 = VERTEX_POINT ( 'NONE', #243 ) ;
#6 = PERSON_AND_ORGANIZATION ( #276, #116 ) ;
#7 = APPROVAL_STATUS ( 'not_yet_approved' ) ;
#8 = EDGE_LOOP ( 'NONE', ( #210, #56, #289, #9 ) ) ;
#9 = ORIENTED_EDGE ( 'NONE', *, *, #320, .F. ) ;
#10 = EDGE_LOOP ( 'NONE', ( #59, #102 ) ) ;
#11 = EDGE_CURVE ( 'NONE', #160, #161, #182, .T. ) ;
#12 = ORIENTED_EDGE ( 'NONE', *, *, #105, .T. ) ;
#13 = AXIS2_PLACEMENT_3D ( 'NONE', #304, #249, #205 ) ;
#14 = ORIENTED_EDGE ( 'NONE', *, *, #309, .F. ) ;
#15 = PLANE ( 'NONE',  #219 ) ;
#16 = DIRECTION ( 'NONE',  ( -1.000000000000000000, -0.000000000000000000, -0.000000000000000000 ) ) ;
#17 = AXIS2_PLACEMENT_3D ( 'NONE', #327, #90, #170 ) ;
#18 = AXIS2_PLACEMENT_3D ( 'NONE', #115, #220, #241 ) ;
#19 = DIRECTION ( 'NONE',  ( -1.000000000000000000, -0.000000000000000000, -0.000000000000000000 ) ) ;
#20 = EDGE_CURVE ( 'NONE', #161, #160, #288, .T. ) ;
#21 = DIRECTION ( 'NONE',  ( 1.000000000000000000, 0.000000000000000000, 0.000000000000000000 ) ) ;
#22 = CIRCLE ( 'NONE', #151, 10.00000000000000000 ) ;
#23 = EDGE_CURVE ( 'NONE', #295, #106, #331, .T. ) ;
#24 = DIRECTION ( 'NONE',  ( 0.000000000000000000, 0.000000000000000000, 1.000000000000000000 ) ) ;
#25 = PRODUCT ( 'QB-CTZQWP-20-894-M', 'QB-CTZQWP-20-894-M', '', ( #285 ) ) ;
#26 = CALENDAR_DATE ( 2020, 24, 12 ) ;
#27 = CARTESIAN_POINT ( 'NONE',  ( -3.000000000000000444, 0.000000000000000000, 0.000000000000000000 ) ) ;
#28 = DIRECTION ( 'NONE',  ( 0.000000000000000000, 0.000000000000000000, 1.000000000000000000 ) ) ;
#29 = ORIENTED_EDGE ( 'NONE', *, *, #162, .F. ) ;
#30 = COORDINATED_UNIVERSAL_TIME_OFFSET ( 8, 0, .AHEAD. ) ;
#31 = APPLICATION_PROTOCOL_DEFINITION ( 'international standard', 'config_control_design', 1994, #108 ) ;
#32 = ORIENTED_EDGE ( 'NONE', *, *, #233, .T. ) ;
#33 = EDGE_LOOP ( 'NONE', ( #12, #181, #85, #81 ) ) ;
#34 = APPROVAL_PERSON_ORGANIZATION ( #202, #139, #204 ) ;
#35 = ADVANCED_FACE ( 'NONE', ( #67 ), #41, .F. ) ;
#36 = ORIENTED_EDGE ( 'NONE', *, *, #263, .F. ) ;
#37 = DIRECTION ( 'NONE',  ( -1.000000000000000000, -0.000000000000000000, -0.000000000000000000 ) ) ;
#38 = DIRECTION ( 'NONE',  ( -1.000000000000000000, -0.000000000000000000, -0.000000000000000000 ) ) ;
#39 = CLOSED_SHELL ( 'NONE', ( #124, #166, #43, #168, #134, #35, #224, #254, #142, #267 ) ) ;
#40 = DIRECTION ( 'NONE',  ( -1.000000000000000000, -0.000000000000000000, -0.000000000000000000 ) ) ;
#41 = CYLINDRICAL_SURFACE ( 'NONE', #117, 10.00000000000000000 ) ;
#42 = CARTESIAN_POINT ( 'NONE',  ( 2.999999999999999112, 0.000000000000000000, 0.000000000000000000 ) ) ;
#43 = ADVANCED_FACE ( 'NONE', ( #272 ), #246, .F. ) ;
#44 = AXIS2_PLACEMENT_3D ( 'NONE', #324, #62, #111 ) ;
#45 = CARTESIAN_POINT ( 'NONE',  ( -3.000000000000000444, 0.000000000000000000, 10.00000000000000000 ) ) ;
#46 = CARTESIAN_POINT ( 'NONE',  ( -2.500000000000000444, 0.000000000000000000, 0.000000000000000000 ) ) ;
#47 = DIRECTION ( 'NONE',  ( -1.000000000000000000, -0.000000000000000000, -0.000000000000000000 ) ) ;
#48 = COORDINATED_UNIVERSAL_TIME_OFFSET ( 8, 0, .AHEAD. ) ;
#49 = DIRECTION ( 'NONE',  ( 0.000000000000000000, 0.000000000000000000, 1.000000000000000000 ) ) ;
#50 = PERSON_AND_ORGANIZATION ( #276, #116 ) ;
#51 = FACE_OUTER_BOUND ( 'NONE', #8, .T. ) ;
#52 = APPROVAL_DATE_TIME ( #310, #174 ) ;
#53 =( NAMED_UNIT ( * ) PLANE_ANGLE_UNIT ( ) SI_UNIT ( $, .RADIAN. ) );
#54 = ORIENTED_EDGE ( 'NONE', *, *, #238, .T. ) ;
#55 = CIRCLE ( 'NONE', #286, 10.00000000000000000 ) ;
#56 = ORIENTED_EDGE ( 'NONE', *, *, #283, .T. ) ;
#57 = DIRECTION ( 'NONE',  ( 0.000000000000000000, 0.000000000000000000, 1.000000000000000000 ) ) ;
#58 = VERTEX_POINT ( 'NONE', #217 ) ;
#59 = ORIENTED_EDGE ( 'NONE', *, *, #198, .F. ) ;
#60 = VECTOR ( 'NONE', #88, 1000.000000000000000 ) ;
#61 = EDGE_LOOP ( 'NONE', ( #240, #130 ) ) ;
#62 = DIRECTION ( 'NONE',  ( -1.000000000000000000, -0.000000000000000000, -0.000000000000000000 ) ) ;
#63 = DIRECTION ( 'NONE',  ( 0.000000000000000000, 0.000000000000000000, 1.000000000000000000 ) ) ;
#64 = DIRECTION ( 'NONE',  ( 1.000000000000000000, 0.000000000000000000, 0.000000000000000000 ) ) ;
#65 = DIRECTION ( 'NONE',  ( -1.000000000000000000, 0.000000000000000000, -0.000000000000000000 ) ) ;
#66 = CC_DESIGN_PERSON_AND_ORGANIZATION_ASSIGNMENT ( #122, #101, ( #298 ) ) ;
#67 = FACE_OUTER_BOUND ( 'NONE', #87, .T. ) ;
#68 = DIRECTION ( 'NONE',  ( -1.000000000000000000, -0.000000000000000000, -0.000000000000000000 ) ) ;
#69 = AXIS2_PLACEMENT_3D ( 'NONE', #301, #155, #28 ) ;
#70 = SECURITY_CLASSIFICATION ( '', '', #313 ) ;
#71 = FACE_OUTER_BOUND ( 'NONE', #262, .T. ) ;
#72 = CARTESIAN_POINT ( 'NONE',  ( -1.614212418857619014, 1.224646799147353256E-15, -10.00000000000000000 ) ) ;
#73 = APPROVAL_ROLE ( '' ) ;
#74 = LINE ( 'NONE', #199, #109 ) ;
#75 = DATE_TIME_ROLE ( 'classification_date' ) ;
#76 = DIRECTION ( 'NONE',  ( -1.000000000000000000, -0.000000000000000000, -0.000000000000000000 ) ) ;
#77 = DATE_AND_TIME ( #255, #152 ) ;
#78 = CC_DESIGN_DATE_AND_TIME_ASSIGNMENT ( #235, #175, ( #293 ) ) ;
#79 = LINE ( 'NONE', #180, #3 ) ;
#80 = DIRECTION ( 'NONE',  ( 1.000000000000000000, 0.000000000000000000, 0.000000000000000000 ) ) ;
#81 = ORIENTED_EDGE ( 'NONE', *, *, #164, .F. ) ;
#82 = PERSON_AND_ORGANIZATION ( #276, #116 ) ;
#83 =( NAMED_UNIT ( * ) SI_UNIT ( $, .STERADIAN. ) SOLID_ANGLE_UNIT ( ) );
#84 = ORIENTED_EDGE ( 'NONE', *, *, #105, .F. ) ;
#85 = ORIENTED_EDGE ( 'NONE', *, *, #20, .F. ) ;
#86 = ORIENTED_EDGE ( 'NONE', *, *, #263, .T. ) ;
#87 = EDGE_LOOP ( 'NONE', ( #237, #86, #282, #135 ) ) ;
#88 = DIRECTION ( 'NONE',  ( -1.000000000000000000, -0.000000000000000000, -0.000000000000000000 ) ) ;
#89 = CARTESIAN_POINT ( 'NONE',  ( -1.614212418857619014, 0.000000000000000000, 10.00000000000000000 ) ) ;
#90 = DIRECTION ( 'NONE',  ( -1.000000000000000000, -0.000000000000000000, -0.000000000000000000 ) ) ;
#91 = DIRECTION ( 'NONE',  ( 0.000000000000000000, 0.000000000000000000, 1.000000000000000000 ) ) ;
#92 = FACE_OUTER_BOUND ( 'NONE', #265, .T. ) ;
#93 = CARTESIAN_POINT ( 'NONE',  ( 2.500000000000000888, 0.000000000000000000, 10.00000000000000000 ) ) ;
#94 =( GEOMETRIC_REPRESENTATION_CONTEXT ( 3 ) GLOBAL_UNCERTAINTY_ASSIGNED_CONTEXT ( ( #306 ) ) GLOBAL_UNIT_ASSIGNED_CONTEXT ( ( #4, #53, #83 ) ) REPRESENTATION_CONTEXT ( 'NONE', 'WORKASPACE' ) );
#95 = DIRECTION ( 'NONE',  ( 1.000000000000000000, 0.000000000000000000, 0.000000000000000000 ) ) ;
#96 = DIRECTION ( 'NONE',  ( -1.000000000000000000, -0.000000000000000000, -0.000000000000000000 ) ) ;
#97 = SHAPE_DEFINITION_REPRESENTATION ( #318, #133 ) ;
#98 = DIRECTION ( 'NONE',  ( -1.000000000000000000, -0.000000000000000000, -0.000000000000000000 ) ) ;
#99 = AXIS2_PLACEMENT_3D ( 'NONE', #203, #171, #335 ) ;
#100 = EDGE_LOOP ( 'NONE', ( #104, #290 ) ) ;
#101 = PERSON_AND_ORGANIZATION_ROLE ( 'design_supplier' ) ;
#102 = ORIENTED_EDGE ( 'NONE', *, *, #149, .F. ) ;
#103 = AXIS2_PLACEMENT_3D ( 'NONE', #129, #206, #80 ) ;
#104 = ORIENTED_EDGE ( 'NONE', *, *, #193, .F. ) ;
#105 = EDGE_CURVE ( 'NONE', #207, #58, #127, .T. ) ;
#106 = VERTEX_POINT ( 'NONE', #165 ) ;
#107 = VERTEX_POINT ( 'NONE', #143 ) ;
#108 = APPLICATION_CONTEXT ( 'configuration controlled 3d designs of mechanical parts and assemblies' ) ;
#109 = VECTOR ( 'NONE', #47, 1000.000000000000000 ) ;
#110 = EDGE_CURVE ( 'NONE', #257, #5, #326, .T. ) ;
#111 = DIRECTION ( 'NONE',  ( 0.000000000000000000, 0.000000000000000000, 1.000000000000000000 ) ) ;
#112 = DIRECTION ( 'NONE',  ( 0.000000000000000000, 0.000000000000000000, 1.000000000000000000 ) ) ;
#113 = FACE_OUTER_BOUND ( 'NONE', #239, .T. ) ;
#114 = CC_DESIGN_PERSON_AND_ORGANIZATION_ASSIGNMENT ( #183, #179, ( #293 ) ) ;
#115 = CARTESIAN_POINT ( 'NONE',  ( -1.614212418857619014, 0.000000000000000000, 0.000000000000000000 ) ) ;
#116 = ORGANIZATION ( 'UNSPECIFIED', 'UNSPECIFIED', '' ) ;
#117 = AXIS2_PLACEMENT_3D ( 'NONE', #167, #19, #163 ) ;
#118 = CARTESIAN_POINT ( 'NONE',  ( -1.614212418857619014, 0.000000000000000000, 0.000000000000000000 ) ) ;
#119 = CARTESIAN_POINT ( 'NONE',  ( -3.000000000000000000, 10.00000000000000000, 0.000000000000000000 ) ) ;
#120 = FACE_OUTER_BOUND ( 'NONE', #184, .T. ) ;
#121 = CARTESIAN_POINT ( 'NONE',  ( 2.500000000000000888, 1.224646799147353256E-15, -10.00000000000000000 ) ) ;
#122 = PERSON_AND_ORGANIZATION ( #276, #116 ) ;
#123 = CARTESIAN_POINT ( 'NONE',  ( -1.614212418857619014, 1.224646799147353256E-15, -10.00000000000000000 ) ) ;
#124 = ADVANCED_FACE ( 'NONE', ( #244 ), #216, .T. ) ;
#125 = CARTESIAN_POINT ( 'NONE',  ( 3.000000000000000000, 0.000000000000000000, 0.000000000000000000 ) ) ;
#126 = CC_DESIGN_SECURITY_CLASSIFICATION ( #70, ( #298 ) ) ;
#127 = CIRCLE ( 'NONE', #317, 12.69999999999999929 ) ;
#128 = APPROVAL_STATUS ( 'not_yet_approved' ) ;
#129 = CARTESIAN_POINT ( 'NONE',  ( 0.000000000000000000, 0.000000000000000000, 0.000000000000000000 ) ) ;
#130 = ORIENTED_EDGE ( 'NONE', *, *, #309, .T. ) ;
#131 = APPROVAL_DATE_TIME ( #208, #197 ) ;
#132 = PERSON_AND_ORGANIZATION ( #276, #116 ) ;
#133 = ADVANCED_BREP_SHAPE_REPRESENTATION ( 'QB-CTZQWP-20-894-M', ( #228, #103 ), #94 ) ;
#134 = ADVANCED_FACE ( 'NONE', ( #113 ), #195, .F. ) ;
#135 = ORIENTED_EDGE ( 'NONE', *, *, #198, .T. ) ;
#136 = AXIS2_PLACEMENT_3D ( 'NONE', #192, #64, #296 ) ;
#137 = ORIENTED_EDGE ( 'NONE', *, *, #110, .F. ) ;
#138 = ORIENTED_EDGE ( 'NONE', *, *, #162, .T. ) ;
#139 = APPROVAL ( #128, 'UNSPECIFIED' ) ;
#140 = CARTESIAN_POINT ( 'NONE',  ( -3.000000000000000000, 1.555301434917138433E-15, -12.69999999999999929 ) ) ;
#141 = AXIS2_PLACEMENT_3D ( 'NONE', #332, #95, #201 ) ;
#142 = ADVANCED_FACE ( 'NONE', ( #299, #196 ), #15, .F. ) ;
#143 = CARTESIAN_POINT ( 'NONE',  ( -3.000000000000000444, 1.224646799147353256E-15, -10.00000000000000000 ) ) ;
#144 = AXIS2_PLACEMENT_3D ( 'NONE', #200, #76, #308 ) ;
#145 = LINE ( 'NONE', #266, #60 ) ;
#146 = CARTESIAN_POINT ( 'NONE',  ( 3.000000000000000000, 0.000000000000000000, 12.69999999999999929 ) ) ;
#147 = EDGE_CURVE ( 'NONE', #58, #160, #145, .T. ) ;
#148 = DIRECTION ( 'NONE',  ( 1.000000000000000000, 0.000000000000000000, 0.000000000000000000 ) ) ;
#149 = EDGE_CURVE ( 'NONE', #107, #215, #22, .T. ) ;
#150 = PLANE ( 'NONE',  #302 ) ;
#151 = AXIS2_PLACEMENT_3D ( 'NONE', #294, #37, #63 ) ;
#152 = LOCAL_TIME ( 9, 50, 47.00000000000000000, #2 ) ;
#153 = APPROVAL_DATE_TIME ( #77, #139 ) ;
#154 = CYLINDRICAL_SURFACE ( 'NONE', #242, 12.69999999999999929 ) ;
#155 = DIRECTION ( 'NONE',  ( -1.000000000000000000, -0.000000000000000000, -0.000000000000000000 ) ) ;
#156 = APPROVAL_ROLE ( '' ) ;
#157 = CIRCLE ( 'NONE', #232, 12.69999999999999929 ) ;
#158 = DIRECTION ( 'NONE',  ( -1.000000000000000000, -0.000000000000000000, -0.000000000000000000 ) ) ;
#159 = ORIENTED_EDGE ( 'NONE', *, *, #11, .T. ) ;
#160 = VERTEX_POINT ( 'NONE', #140 ) ;
#161 = VERTEX_POINT ( 'NONE', #274 ) ;
#162 = EDGE_CURVE ( 'NONE', #257, #234, #268, .T. ) ;
#163 = DIRECTION ( 'NONE',  ( 0.000000000000000000, 0.000000000000000000, 1.000000000000000000 ) ) ;
#164 = EDGE_CURVE ( 'NONE', #207, #161, #74, .T. ) ;
#165 = CARTESIAN_POINT ( 'NONE',  ( -2.500000000000000444, 1.224646799147353256E-15, -10.00000000000000000 ) ) ;
#166 = ADVANCED_FACE ( 'NONE', ( #51 ), #231, .F. ) ;
#167 = CARTESIAN_POINT ( 'NONE',  ( -1.614212418857619014, 0.000000000000000000, 0.000000000000000000 ) ) ;
#168 = ADVANCED_FACE ( 'NONE', ( #253 ), #176, .F. ) ;
#169 = APPLICATION_CONTEXT ( 'configuration controlled 3d designs of mechanical parts and assemblies' ) ;
#170 = DIRECTION ( 'NONE',  ( 0.000000000000000000, 0.000000000000000000, 1.000000000000000000 ) ) ;
#171 = DIRECTION ( 'NONE',  ( -1.000000000000000000, 0.000000000000000000, -0.000000000000000000 ) ) ;
#172 = CARTESIAN_POINT ( 'NONE',  ( 2.999999999999999112, 0.000000000000000000, 10.00000000000000000 ) ) ;
#173 = DIRECTION ( 'NONE',  ( -1.000000000000000000, -0.000000000000000000, -0.000000000000000000 ) ) ;
#174 = APPROVAL ( #7, 'UNSPECIFIED' ) ;
#175 = DATE_TIME_ROLE ( 'creation_date' ) ;
#176 = PLANE ( 'NONE',  #99 ) ;
#177 = AXIS2_PLACEMENT_3D ( 'NONE', #333, #96, #57 ) ;
#178 = AXIS2_PLACEMENT_3D ( 'NONE', #42, #191, #112 ) ;
#179 = PERSON_AND_ORGANIZATION_ROLE ( 'creator' ) ;
#180 = CARTESIAN_POINT ( 'NONE',  ( -1.614212418857619014, 0.000000000000000000, 10.00000000000000000 ) ) ;
#181 = ORIENTED_EDGE ( 'NONE', *, *, #147, .T. ) ;
#182 = CIRCLE ( 'NONE', #44, 12.69999999999999929 ) ;
#183 = PERSON_AND_ORGANIZATION ( #276, #116 ) ;
#184 = EDGE_LOOP ( 'NONE', ( #321, #36 ) ) ;
#185 = ORIENTED_EDGE ( 'NONE', *, *, #221, .T. ) ;
#186 = CC_DESIGN_PERSON_AND_ORGANIZATION_ASSIGNMENT ( #82, #278, ( #70 ) ) ;
#187 = ORIENTED_EDGE ( 'NONE', *, *, #147, .F. ) ;
#188 = VECTOR ( 'NONE', #98, 1000.000000000000000 ) ;
#189 = APPROVAL_PERSON_ORGANIZATION ( #132, #174, #73 ) ;
#190 = DIRECTION ( 'NONE',  ( -0.000000000000000000, 0.000000000000000000, 1.000000000000000000 ) ) ;
#191 = DIRECTION ( 'NONE',  ( -1.000000000000000000, -0.000000000000000000, -0.000000000000000000 ) ) ;
#192 = CARTESIAN_POINT ( 'NONE',  ( -2.500000000000000444, 0.000000000000000000, 0.000000000000000000 ) ) ;
#193 = EDGE_CURVE ( 'NONE', #234, #291, #292, .T. ) ;
#194 = CC_DESIGN_APPROVAL ( #197, ( #298 ) ) ;
#195 = CYLINDRICAL_SURFACE ( 'NONE', #17, 10.00000000000000000 ) ;
#196 = FACE_BOUND ( 'NONE', #61, .T. ) ;
#197 = APPROVAL ( #259, 'UNSPECIFIED' ) ;
#198 = EDGE_CURVE ( 'NONE', #215, #107, #256, .T. ) ;
#199 = CARTESIAN_POINT ( 'NONE',  ( -1.614212418857619014, 0.000000000000000000, 12.69999999999999929 ) ) ;
#200 = CARTESIAN_POINT ( 'NONE',  ( 2.500000000000000888, 0.000000000000000000, 0.000000000000000000 ) ) ;
#201 = DIRECTION ( 'NONE',  ( 0.000000000000000000, 0.000000000000000000, -1.000000000000000000 ) ) ;
#202 = PERSON_AND_ORGANIZATION ( #276, #116 ) ;
#203 = CARTESIAN_POINT ( 'NONE',  ( 2.500000000000000444, 10.00000000000000000, 0.000000000000000000 ) ) ;
#204 = APPROVAL_ROLE ( '' ) ;
#205 = DIRECTION ( 'NONE',  ( 0.000000000000000000, 0.000000000000000000, 1.000000000000000000 ) ) ;
#206 = DIRECTION ( 'NONE',  ( 0.000000000000000000, 0.000000000000000000, 1.000000000000000000 ) ) ;
#207 = VERTEX_POINT ( 'NONE', #146 ) ;
#208 = DATE_AND_TIME ( #26, #211 ) ;
#209 = APPLICATION_PROTOCOL_DEFINITION ( 'international standard', 'config_control_design', 1994, #169 ) ;
#210 = ORIENTED_EDGE ( 'NONE', *, *, #23, .T. ) ;
#211 = LOCAL_TIME ( 9, 50, 47.00000000000000000, #307 ) ;
#212 = ORIENTED_EDGE ( 'NONE', *, *, #164, .T. ) ;
#213 = CC_DESIGN_PERSON_AND_ORGANIZATION_ASSIGNMENT ( #6, #334, ( #298 ) ) ;
#214 = ORIENTED_EDGE ( 'NONE', *, *, #233, .F. ) ;
#215 = VERTEX_POINT ( 'NONE', #45 ) ;
#216 = CYLINDRICAL_SURFACE ( 'NONE', #18, 12.69999999999999929 ) ;
#217 = CARTESIAN_POINT ( 'NONE',  ( 3.000000000000000000, 1.555301434917138433E-15, -12.69999999999999929 ) ) ;
#218 = CC_DESIGN_APPROVAL ( #139, ( #70 ) ) ;
#219 = AXIS2_PLACEMENT_3D ( 'NONE', #300, #65, #190 ) ;
#220 = DIRECTION ( 'NONE',  ( -1.000000000000000000, -0.000000000000000000, -0.000000000000000000 ) ) ;
#221 = EDGE_CURVE ( 'NONE', #5, #291, #247, .T. ) ;
#222 = CC_DESIGN_DATE_AND_TIME_ASSIGNMENT ( #229, #75, ( #70 ) ) ;
#223 = CARTESIAN_POINT ( 'NONE',  ( -3.000000000000000000, 0.000000000000000000, 0.000000000000000000 ) ) ;
#224 = ADVANCED_FACE ( 'NONE', ( #230, #92 ), #150, .F. ) ;
#225 = DIRECTION ( 'NONE',  ( 0.000000000000000000, 0.000000000000000000, -1.000000000000000000 ) ) ;
#226 = PLANE ( 'NONE',  #141 ) ;
#227 = CARTESIAN_POINT ( 'NONE',  ( -2.500000000000000444, 0.000000000000000000, 10.00000000000000000 ) ) ;
#228 = MANIFOLD_SOLID_BREP ( 'Ðý×', #39 ) ;
#229 = DATE_AND_TIME ( #251, #250 ) ;
#230 = FACE_BOUND ( 'NONE', #10, .T. ) ;
#231 = CYLINDRICAL_SURFACE ( 'NONE', #69, 10.00000000000000000 ) ;
#232 = AXIS2_PLACEMENT_3D ( 'NONE', #125, #329, #24 ) ;
#233 = EDGE_CURVE ( 'NONE', #58, #207, #157, .T. ) ;
#234 = VERTEX_POINT ( 'NONE', #93 ) ;
#235 = DATE_AND_TIME ( #284, #270 ) ;
#236 = PERSON_AND_ORGANIZATION_ROLE ( 'design_owner' ) ;
#237 = ORIENTED_EDGE ( 'NONE', *, *, #283, .F. ) ;
#238 = EDGE_CURVE ( 'NONE', #291, #234, #269, .T. ) ;
#239 = EDGE_LOOP ( 'NONE', ( #316, #137, #138, #264 ) ) ;
#240 = ORIENTED_EDGE ( 'NONE', *, *, #110, .T. ) ;
#241 = DIRECTION ( 'NONE',  ( 0.000000000000000000, 0.000000000000000000, 1.000000000000000000 ) ) ;
#242 = AXIS2_PLACEMENT_3D ( 'NONE', #252, #312, #277 ) ;
#243 = CARTESIAN_POINT ( 'NONE',  ( 2.999999999999999112, 1.224646799147353256E-15, -10.00000000000000000 ) ) ;
#244 = FACE_OUTER_BOUND ( 'NONE', #33, .T. ) ;
#245 = VECTOR ( 'NONE', #280, 1000.000000000000000 ) ;
#246 = CYLINDRICAL_SURFACE ( 'NONE', #271, 10.00000000000000000 ) ;
#247 = LINE ( 'NONE', #123, #188 ) ;
#248 = DIRECTION ( 'NONE',  ( 0.000000000000000000, 0.000000000000000000, -1.000000000000000000 ) ) ;
#249 = DIRECTION ( 'NONE',  ( -1.000000000000000000, -0.000000000000000000, -0.000000000000000000 ) ) ;
#250 = LOCAL_TIME ( 9, 50, 47.00000000000000000, #30 ) ;
#251 = CALENDAR_DATE ( 2020, 24, 12 ) ;
#252 = CARTESIAN_POINT ( 'NONE',  ( -1.614212418857619014, 0.000000000000000000, 0.000000000000000000 ) ) ;
#253 = FACE_OUTER_BOUND ( 'NONE', #100, .T. ) ;
#254 = ADVANCED_FACE ( 'NONE', ( #71 ), #154, .T. ) ;
#255 = CALENDAR_DATE ( 2020, 24, 12 ) ;
#256 = CIRCLE ( 'NONE', #1, 10.00000000000000000 ) ;
#257 = VERTEX_POINT ( 'NONE', #172 ) ;
#258 = APPROVAL_PERSON_ORGANIZATION ( #50, #197, #156 ) ;
#259 = APPROVAL_STATUS ( 'not_yet_approved' ) ;
#260 = PERSON_AND_ORGANIZATION ( #276, #116 ) ;
#261 = ORIENTED_EDGE ( 'NONE', *, *, #20, .T. ) ;
#262 = EDGE_LOOP ( 'NONE', ( #187, #32, #212, #287 ) ) ;
#263 = EDGE_CURVE ( 'NONE', #106, #295, #55, .T. ) ;
#264 = ORIENTED_EDGE ( 'NONE', *, *, #193, .T. ) ;
#265 = EDGE_LOOP ( 'NONE', ( #261, #159 ) ) ;
#266 = CARTESIAN_POINT ( 'NONE',  ( -1.614212418857619014, 1.555301434917138433E-15, -12.69999999999999929 ) ) ;
#267 = ADVANCED_FACE ( 'NONE', ( #120 ), #226, .F. ) ;
#268 = LINE ( 'NONE', #89, #245 ) ;
#269 = CIRCLE ( 'NONE', #13, 10.00000000000000000 ) ;
#270 = LOCAL_TIME ( 9, 50, 47.00000000000000000, #315 ) ;
#271 = AXIS2_PLACEMENT_3D ( 'NONE', #118, #40, #275 ) ;
#272 = FACE_OUTER_BOUND ( 'NONE', #322, .T. ) ;
#273 = PRODUCT_RELATED_PRODUCT_CATEGORY ( 'detail', '', ( #25 ) ) ;
#274 = CARTESIAN_POINT ( 'NONE',  ( -3.000000000000000000, 0.000000000000000000, 12.69999999999999929 ) ) ;
#275 = DIRECTION ( 'NONE',  ( 0.000000000000000000, 0.000000000000000000, 1.000000000000000000 ) ) ;
#276 = PERSON ( 'UNSPECIFIED', 'UNSPECIFIED', 'UNSPECIFIED', ('UNSPECIFIED'), ('UNSPECIFIED'), ('UNSPECIFIED') ) ;
#277 = DIRECTION ( 'NONE',  ( 0.000000000000000000, 0.000000000000000000, 1.000000000000000000 ) ) ;
#278 = PERSON_AND_ORGANIZATION_ROLE ( 'classification_officer' ) ;
#279 = DESIGN_CONTEXT ( 'detailed design', #108, 'design' ) ;
#280 = DIRECTION ( 'NONE',  ( -1.000000000000000000, -0.000000000000000000, -0.000000000000000000 ) ) ;
#281 = CC_DESIGN_PERSON_AND_ORGANIZATION_ASSIGNMENT ( #260, #236, ( #25 ) ) ;
#282 = ORIENTED_EDGE ( 'NONE', *, *, #320, .T. ) ;
#283 = EDGE_CURVE ( 'NONE', #106, #107, #305, .T. ) ;
#284 = CALENDAR_DATE ( 2020, 24, 12 ) ;
#285 = MECHANICAL_CONTEXT ( 'NONE', #169, 'mechanical' ) ;
#286 = AXIS2_PLACEMENT_3D ( 'NONE', #46, #148, #248 ) ;
#287 = ORIENTED_EDGE ( 'NONE', *, *, #11, .F. ) ;
#288 = CIRCLE ( 'NONE', #303, 12.69999999999999929 ) ;
#289 = ORIENTED_EDGE ( 'NONE', *, *, #149, .T. ) ;
#290 = ORIENTED_EDGE ( 'NONE', *, *, #238, .F. ) ;
#291 = VERTEX_POINT ( 'NONE', #121 ) ;
#292 = CIRCLE ( 'NONE', #144, 10.00000000000000000 ) ;
#293 = PRODUCT_DEFINITION ( 'UNKNOWN', '', #298, #279 ) ;
#294 = CARTESIAN_POINT ( 'NONE',  ( -3.000000000000000444, 0.000000000000000000, 0.000000000000000000 ) ) ;
#295 = VERTEX_POINT ( 'NONE', #227 ) ;
#296 = DIRECTION ( 'NONE',  ( 0.000000000000000000, 0.000000000000000000, -1.000000000000000000 ) ) ;
#297 = CIRCLE ( 'NONE', #177, 10.00000000000000000 ) ;
#298 = PRODUCT_DEFINITION_FORMATION_WITH_SPECIFIED_SOURCE ( 'ANY', '', #25, .NOT_KNOWN. ) ;
#299 = FACE_OUTER_BOUND ( 'NONE', #319, .T. ) ;
#300 = CARTESIAN_POINT ( 'NONE',  ( 2.999999999999999112, 12.69999999999999929, 0.000000000000000000 ) ) ;
#301 = CARTESIAN_POINT ( 'NONE',  ( -1.614212418857619014, 0.000000000000000000, 0.000000000000000000 ) ) ;
#302 = AXIS2_PLACEMENT_3D ( 'NONE', #119, #21, #225 ) ;
#303 = AXIS2_PLACEMENT_3D ( 'NONE', #223, #16, #323 ) ;
#304 = CARTESIAN_POINT ( 'NONE',  ( 2.500000000000000888, 0.000000000000000000, 0.000000000000000000 ) ) ;
#305 = LINE ( 'NONE', #72, #330 ) ;
#306 = UNCERTAINTY_MEASURE_WITH_UNIT (LENGTH_MEASURE( 1.000000000000000082E-05 ), #4, 'distance_accuracy_value', 'NONE');
#307 = COORDINATED_UNIVERSAL_TIME_OFFSET ( 8, 0, .AHEAD. ) ;
#308 = DIRECTION ( 'NONE',  ( 0.000000000000000000, 0.000000000000000000, 1.000000000000000000 ) ) ;
#309 = EDGE_CURVE ( 'NONE', #5, #257, #297, .T. ) ;
#310 = DATE_AND_TIME ( #314, #311 ) ;
#311 = LOCAL_TIME ( 9, 50, 47.00000000000000000, #48 ) ;
#312 = DIRECTION ( 'NONE',  ( -1.000000000000000000, -0.000000000000000000, -0.000000000000000000 ) ) ;
#313 = SECURITY_CLASSIFICATION_LEVEL ( 'unclassified' ) ;
#314 = CALENDAR_DATE ( 2020, 24, 12 ) ;
#315 = COORDINATED_UNIVERSAL_TIME_OFFSET ( 8, 0, .AHEAD. ) ;
#316 = ORIENTED_EDGE ( 'NONE', *, *, #221, .F. ) ;
#317 = AXIS2_PLACEMENT_3D ( 'NONE', #328, #38, #91 ) ;
#318 = PRODUCT_DEFINITION_SHAPE ( 'NONE', 'NONE',  #293 ) ;
#319 = EDGE_LOOP ( 'NONE', ( #84, #214 ) ) ;
#320 = EDGE_CURVE ( 'NONE', #295, #215, #79, .T. ) ;
#321 = ORIENTED_EDGE ( 'NONE', *, *, #23, .F. ) ;
#322 = EDGE_LOOP ( 'NONE', ( #14, #185, #54, #29 ) ) ;
#323 = DIRECTION ( 'NONE',  ( 0.000000000000000000, 0.000000000000000000, 1.000000000000000000 ) ) ;
#324 = CARTESIAN_POINT ( 'NONE',  ( -3.000000000000000000, 0.000000000000000000, 0.000000000000000000 ) ) ;
#325 = CC_DESIGN_APPROVAL ( #174, ( #293 ) ) ;
#326 = CIRCLE ( 'NONE', #178, 10.00000000000000000 ) ;
#327 = CARTESIAN_POINT ( 'NONE',  ( -1.614212418857619014, 0.000000000000000000, 0.000000000000000000 ) ) ;
#328 = CARTESIAN_POINT ( 'NONE',  ( 3.000000000000000000, 0.000000000000000000, 0.000000000000000000 ) ) ;
#329 = DIRECTION ( 'NONE',  ( -1.000000000000000000, -0.000000000000000000, -0.000000000000000000 ) ) ;
#330 = VECTOR ( 'NONE', #173, 1000.000000000000000 ) ;
#331 = CIRCLE ( 'NONE', #136, 10.00000000000000000 ) ;
#332 = CARTESIAN_POINT ( 'NONE',  ( -2.500000000000000444, 10.00000000000000000, 0.000000000000000000 ) ) ;
#333 = CARTESIAN_POINT ( 'NONE',  ( 2.999999999999999112, 0.000000000000000000, 0.000000000000000000 ) ) ;
#334 = PERSON_AND_ORGANIZATION_ROLE ( 'creator' ) ;
#335 = DIRECTION ( 'NONE',  ( -0.000000000000000000, 0.000000000000000000, 1.000000000000000000 ) ) ;
ENDSEC;
END-ISO-10303-21;
